New York State of Mind arranged by Keri

(/) Slide Up  (\) Slide Down  (h) Hammer On  (p) Pull Off  (b) Bend (r) Release (v) Vibrato
E|--2----------------------------------------------------------7----------5--------------------------
B|--3--------------3-----------------------2-------------------------4-5-----------------3-----------
G|--2--------3--------3-----3--------2--------2-----2-------------5--4-5-----------4--------4-----4--
D|--0-----2-----2--------2--------0-----0--------0----------5--------4/5--------5-----5--------5-----
A|--0--1-----------------------2---------------------------------------------------------------------
E|-----------------------------------------------------3/5-------------------3-----------------------



E|--2--7----------------2h3p2-----------0--------3-----------2--0--2-------------------
B|--4--8-------3/5-4\3--3------3--2-----0--------3--------3--3--0--3--0----------------
G|--4--9-------3-5-4-3--2------3--2-----1--------4--------4--4--1--4--1---------7h9p7--
D|--4--9-------2--------0------2--0-----0--------5--------5--4--2--4--2--7h9p7---------
A|--2--7--0h3----5/4-3--0------1--2-----2--------5--------0--2--2--2--2----------------
E|-----------------------------------0--0--3--3--3--5--5--5--2--0--2--0----------------
http://www.guitartabcreator.com
Guitar Tab Creator is intended to store guitar tab created through the tool. It currently does not support in-line text editing. Any text you place in here will be lost. If you need to comment on your tab, please use the "Tab Notes" section located below.