Song 1

(/) Slide Up  (\) Slide Down  (h) Hammer On  (p) Pull Off  (b) Bend (r) Release (v) Vibrato


t: WW W WW WW WW W
E|-----12--------------------------------------
B|-----12-------------------------7------7-----
G|-----12-----9-----12-----11-----9------8-----
D|-----14-----------9------9------10-----9-----
A|-----14-----7-----10-----9-------------------
E|-----12------------------11------------------


t: none none none none none
E|-----------------------------------------
B|-----------------------------------------
G|-----6-----7-----3-----6-----7-----------
D|-----------------------------------------
A|-----4-----5-----1-----4-----5-----------
E|-----------------------------------------


t: nonenone none nonenone nonenone
E|--------------------------------
B|--------------------------------
G|-----7------5-----8------7------
D|-----8------7-----10-----8------
A|-----10-----9-----12-----10-----
E|--------------------------------


t: nonenone nonenone nonenone
E|-----10-----8------11-----
B|-----11-----10-----13-----
G|-----12-----11-----14-----
D|-----12-----12------------
A|--------------------------
E|--------------------------


t: nonenone nonenone none none
E|-----10-----8------5-----6-----
B|-----11-----10-----6-----6-----
G|-----12-----10-----7-----7-----
D|-----12-----10-----7-----8-----
A|------------8------5-----8-----
E|-------------------------6-----


t: none none none none none none none none none none none none
E|-----------1-----------------------------------------------------0-----5-----
B|-----------1-----6-----------------------------------6-----3-----3-----3-----
G|-----3-----1-----------2-----3-----6-----2-----6-----------2-----2-----2-----
D|-----3-----3-----3-----0-----3-----3-----0-----3-----3-----0-----------------
A|-----4-----3-----------0-----4-----4-----0-----4-----4-----------------------
E|-----------1-----------------------------------------------------------------


t: none none none none
E|-----------------------------
B|-----------------------------
G|-----------------------------
D|-----3-----2-----4-----3-----
A|-----5-----4-----2-----3-----
E|-----6-----5-----2-----1-----
Guitar Tab Creator is intended to store guitar tab created through the tool. It currently does not support in-line text editing. Any text you place in here will be lost. If you need to comment on your tab, please use the "Tab Notes" section located below.