Feel So Right

(/) Slide Up  (\) Slide Down  (h) Hammer On  (p) Pull Off  (b) Bend (r) Release (v) Vibrato


E|----------------------------3----------------------------------
B|----------3--------3-----3-----3-------------3--------3-----0--
G|-----0h2-----2--2-----0--0--------0-----0h2-----2--2-----0--0--
D|---------------------------------------------------------------
A|--2----------------------3-----------2----------------------3--
E|---------------------------------------------------------------



E|----------------------------3---------------------------------
B|----------3--------3-----3-----3/5----------3--------3-----3--
G|-----0h2-----2--2-----0--0-------------0h2-----2--2-----0--0--
D|--------------------------------------------------------------
A|--2----------------------3----------2----------------------3--
E|--------------------------------------------------------------



E|----------
B|--3----3--
G|--2----0--
D|----------
A|--2----2--
E|----------
http://www.guitartabcreator.com
Guitar Tab Creator is intended to store guitar tab created through the tool. It currently does not support in-line text editing. Any text you place in here will be lost. If you need to comment on your tab, please use the "Tab Notes" section located below.