Wish You Were Here - 2nd guitar solo

(/) Slide Up  (\) Slide Down  (h) Hammer On  (p) Pull Off  (b) Bend (r) Release (v) Vibrato


E|--------------------------------------|----------------------------------|-----
B|--------------------------------------|--15b17--15-----------------------|-----
G|--14b16--16--16--16--------14b16--16--|-------------------14b16--16--16--|-----
D|--------------------------------------|----------------------------------|-----
A|--------------------------------------|----------------------------------|-----
E|--------------------------------------|----------------------------------|-----



E|---------------------------------|------------------|-----------------------------------
B|---------------------------------|------------------|---------15-------------15--15-----
G|--14b16------14b16------16r14p12\|--11--------------|--14/16----------14/16-------------
D|---------------------------------|------12----------|-----------------------------------
A|---------------------------------|----------14------|-----------------------------------
E|---------------------------------|------------------|-----------------------------------



E|--------------|--------------------------------------|-----------------------------
B|--15----------|---------17---------------------------|---------15------------------
G|------16--12--|--16/18--------18----/18--18--18--18--|--14/16--------16----12--14--
D|--------------|--------------------------------------|-----------------------------
A|--------------|--------------------------------------|-----------------------------
E|--------------|--------------------------------------|-----------------------------



E|------------------------|----------------------------------|-------------------------|--
B|------------------------|---------17-----------------------|--15---------------------|--
G|--14b16r14--12--14--12--|--16/18----------18\16--14--------|--14b16------------------|--
D|------------------------|----------------------------------|-------------------------|--
A|------------------------|----------------------------------|-------------------------|--
E|------------------------|----------------------------------|-------------------------|--
http://www.guitartabcreator.com
Guitar Tab Creator is intended to store guitar tab created through the tool. It currently does not support in-line text editing. Any text you place in here will be lost. If you need to comment on your tab, please use the "Tab Notes" section located below.