Last Dance With Mary Jane -- Tom Petty

(/) Slide Up  (\) Slide Down  (h) Hammer On  (p) Pull Off  (b) Bend (r) Release (v) Vibrato


E|--5----5----5----5--|----------------|----------------------0---0---0---0---|--
B|--5----5----5----5--|--5/8--8--8--8--|--8h10----8h10----/12\10--10--10--10--|--
G|--------------------|----------------|--------------------------------------|--
D|--------------------|----------------|--------------------------------------|--
A|--------------------|----------------|--------------------------------------|--
E|--------------------|----------------|--------------------------------------|--



E|--0-----0---0---0---|--0-----0--0--0----|--0--0----0--------|-----------|--|--
B|--8h10--10--10--10--|--10\8--5--5--3h5--|--3--1h3--1--------|-----------|--|--
G|--------------------|-------------------|-------------2--0--|--2--------|--|--
D|--------------------|-------------------|-------------------|-----------|--|--
A|--------------------|-------------------|-------------------|-----------|--|--
E|--------------------|-------------------|-------------------|-----------|--|--
http://www.guitartabcreator.com
Guitar Tab Creator is intended to store guitar tab created through the tool. It currently does not support in-line text editing. Any text you place in here will be lost. If you need to comment on your tab, please use the "Tab Notes" section located below.