Jingle Bell Rock (Intro)

(/) Slide Up  (\) Slide Down  (h) Hammer On  (p) Pull Off  (b) Bend (r) Release (v) Vibrato


E|--12----12--12----12----12--12--|--12--15----------------------------|------|-----
B|--13----13--13----12----12--12--|----------13--15--15b16r15--13------|------|-----
G|--------------------------------|--------------------------------14--|--12--|-----
D|--------------------------------|------------------------------------|------|-----
A|--------------------------------|------------------------------------|------|-----
E|--------------------------------|------------------------------------|------|-----



E|--------------------|--
B|--------------------|--
G|--------------------|--
D|----5--3----2----0--|--
A|--------------------|--
E|--------------------|--
http://www.guitartabcreator.com
Guitar Tab Creator is intended to store guitar tab created through the tool. It currently does not support in-line text editing. Any text you place in here will be lost. If you need to comment on your tab, please use the "Tab Notes" section located below.