Alive With the Glory of Love -- Say Anything

(/) Slide Up  (\) Slide Down  (h) Hammer On  (p) Pull Off  (b) Bend (r) Release (v) Vibrato


E|--------0--0--------0--0--------0--0--------0--0--
B|--------------------------------------------------
G|--2--2--------2--2--------2--2--------2--2--------
D|--4-----------------------2-----------------------
A|--4-----------------------2-----------------------
E|--------------------------0-----------------------



E|-----
B|-----
G|-----
D|-----
A|-----
E|-----



E|-----2--0-----
B|--2--2--0--3--
G|--2--2--1--2--
D|--0--4--2-----
A|-----4--2--2--
E|--------0-----
http://www.guitartabcreator.com
Guitar Tab Creator is intended to store guitar tab created through the tool. It currently does not support in-line text editing. Any text you place in here will be lost. If you need to comment on your tab, please use the "Tab Notes" section located below.