Warm ups

(/) Slide Up  (\) Slide Down  (h) Hammer On  (p) Pull Off  (b) Bend (r) Release (v) Vibrato

Stave 1:

E|--------------------------------1--2/3--2----------------------------------------------------------
B|--------------------------1--2-------------3--2----------------------------------------------------
G|--------------------1--2-------------------------3--2-------------------------------------3--4-----
D|--------------1--2-------------------------------------3--2-------------------------3--4-----------
A|--------1--2-------------------------------------------------3--2-------------3--4-----------------
E|--1--2-------------------------------------------------------------3--2/3--4-----------------------

Stave 2:

E|--------------------|--------------------|--------------------|--------5--3-------|--------5--|--
B|--------------------|--------------------|--------5--3--------|-----4--------4----|-----6-----|--
G|--------------------|--------5--3--------|-----4--------4-----|--3--------------5/|--7--------|--
D|--------5--3--------|-----4--------4-----|--3--------------5--|-------------------|-----------|--
A|-----4--------4-----|--3--------------5--|--------------------|-------------------|-----------|--
E|--3--------------5--|--------------------|--------------------|-------------------|-----------|--

Stave 3:

E|--7--------|--------------------|--------------------|--------------------|--
B|-----6-----|--------5--7--------|--------------------|--------------------|--
G|--------5--|-----6--------6-----|--------5--7--------|--------------------|--
D|-----------|--7--------------5--|-----6--------6-----|--------5--7--------|--
A|-----------|--------------------|--7--------------5--|-----6--------6-----|--
E|-----------|--------------------|--------------------|--7--------------5--|--

http://www.guitartabcreator.com
Guitar Tab Creator is intended to store guitar tab created through the tool. It currently does not support in-line text editing. Any text you place in here will be lost. If you need to comment on your tab, please use the "Tab Notes" section located below.