Using octave skips to map out the neck.

(/) Slide Up  (\) Slide Down  (h) Hammer On  (p) Pull Off  (b) Bend (r) Release (v) Vibrato

Stave 1:

E|--------|--------|--------|-----3--|--------
B|--------|--------|-----3--|--------|--------
G|--------|-----2--|--------|--0-----|--------
D|-----2--|--------|--0-----|--------|--------
A|--------|--0-----|--------|--------|--------
E|--0-----|--------|--------|--------|--------

Stave 2:

E|-----0--|-----1--|--
B|--------|--------|--
G|--------|--------|--
D|--------|--------|--
A|--------|--------|--
E|--0-----|--1-----|--

Stave 3:

E|--------|--------|--------|-----4--|--
B|--------|--------|-----4--|--------|--
G|--------|-----3--|--------|--1-----|--
D|-----3--|--------|--1-----|--------|--
A|--------|--1-----|--------|--------|--
E|--1-----|--------|--------|--------|--

Stave 4:

E|-----------|--------6--
B|--------6--|-----------
G|-----------|-----3-----
D|-----3-----|-----------
A|-----------|--1--------
E|--1--------|-----------

http://www.guitartabcreator.com
Guitar Tab Creator is intended to store guitar tab created through the tool. It currently does not support in-line text editing. Any text you place in here will be lost. If you need to comment on your tab, please use the "Tab Notes" section located below.