melody

(/) Slide Up  (\) Slide Down  (h) Hammer On  (p) Pull Off  (b) Bend (r) Release (v) Vibrato


E|-----------------------------------------------0-----------------------------------------
B|-----------------------------------------3--3------------------------------------0--5b6--
G|-----------0--0--0--4--2-----------0--4-----------4v--2--2--2--2--2--2--2--2--4----------
D|--2--2--2-----------------2--2--2---------------------2--2--2--2--2--2--2--2--4----------
A|-----------------------------------------------------------------------------------------
E|-----------------------------------------------------------------------------------------



E|-----------------------------0----------------------0-----0------------------------------
B|--------------------------3-----5--6b7-----------3-----3-----3--3--5--6b7--5--6b7--------
G|--------------------4--4----------------------4---------------------------------------0--
D|--2--4--4--4--4--6----------------------2--4---------------------------------------2-----
A|-----------------------------------------------------------------------------------------
E|-----------------------------------------------------------------------------------------



E|-----------------------------------------------------------
B|-----------------------------------------------------------
G|------------------------------0----------------------------
D|--2--0-----------2--5v--6--2-----2--0-----------2--2--5b6--
A|--------3--2--2------------------------3--2--2-------------
E|-----------------------------------------------------------
http://www.guitartabcreator.com
Guitar Tab Creator is intended to store guitar tab created through the tool. It currently does not support in-line text editing. Any text you place in here will be lost. If you need to comment on your tab, please use the "Tab Notes" section located below.