drop tune

(/) Slide Up  (\) Slide Down  (h) Hammer On  (p) Pull Off  (b) Bend (r) Release (v) Vibrato


E|--------------------------------------------------------------------------------------------
B|--------------------------------------------------------------------------------------------
G|--------------------------------------------5-----4--4--4--4--4--4--4--4--4--4--4--4--4--4--
D|-----2-----2--------5-----2--------2-----5--5-----4--4--4--4--4--4--4--4--4--4--4--4--4--4--
A|-----2-----2-----5--5-----2-----2--2--3-----3--3--2--2--2--2--2--2--2--2--2--2--2--2--2--2--
E|--9--0--0--0--3-----3--3--0--0-----0--------------------------------------------------------



E|--------------------------------------------------------------------------------------------
B|--------------------------------------------------------------------------------------------
G|--4--4--4--4--4--4--4--4--4--4--4-----------------------------------------5-----4--4--4--4--
D|--4--4--4--4--4--4--4--4--4--4--4--2-----2--------5-----2--------2-----5--5-----4--4--4--4--
A|--2--2--2--2--2--2--2--2--2--2--2--2-----2-----5--5-----2-----2--2--3-----3--3--2--2--2--2--
E|-----------------------------------0--0--0--3-----3--3--0--0-----0--------------------------



E|---------------------------------------------------------------------------------------------
B|---------------------------------------------------------------------------------------------
G|--4--4--4--4--4--4--4--4--4--4--4--4--4--4--4--4--4--4--4--4--4------------------------------
D|--4--4--4--4--4--4--4--4--4--4--4--4--4--4--4--4--4--4--4--4--4--7--x--x--x--x--x--x--10--x--
A|--2--2--2--2--2--2--2--2--2--2--2--2--2--2--2--2--2--2--2--2--2--7--x--x--x--x--x--x--10--x--
E|-----------------------------------------------------------------5--x--x--x--x--x--x--8---x--



E|----------------------------------------------------------------------------------------------
B|----------------------------------------------------------------------------------------------
G|-----12--x--x--x---------------------------------12--x--x--x--12--12--12--12--12--12--12--12--
D|--x--12--x--x--x--7--x--x--x--x--x--x--10--x--x--12--x--x--x--12--12--12--12--12--12--12--12--
A|--x--10--x--x--x--7--x--x--x--x--x--x--10--x--x--10--x--x--x--10--10--10--10--10--10--10--10--
E|--x---------------5--x--x--x--x--x--x--8---x--x-----------------------------------------------



E|----------------------------------------------------------------------------------------7\3p0--
B|-----------------------------------------------------------------------------------------------
G|--10--10--10--10--10--10--10--10--x--5--5--5--5--5--5--5--5--5--5--5--5--5--5--5--5--5---------
D|--10--10--10--10--10--10--10--10--x--5--5--5--5--5--5--5--5--5--5--5--5--5--5--5--5--5---------
A|--8---8---8---8---8---8---8---8---x--3--3--3--3--3--3--3--3--3--3--3--3--3--3--3--3--3---------
E|-----------------------------------------------------------------------------------------------



E|-----7\3p0-----0--7\3p0------7\3p0-----0v-----------------------------------------------------
B|--3---------3------------3v---------3------5--------------------------------------------------
G|-------------------------------------------------------------------------------------5--------
D|----------------------------------------------2-----2--------5-----2--------2-----5--5-----2--
A|----------------------------------------------2-----2-----5--5-----2-----2--2--3-----3--3--2--
E|----------------------------------------------0--0--0--3-----3--3--0--0-----0--------------0--



E|--------------------------------------------------
B|--------------------------------------------------
G|--4--4--4--4--4--4--4--4--5--5--5--5--5--5--5--5--
D|--4--4--4--4--4--4--4--4--5--5--5--5--5--5--5--5--
A|--2--2--2--2--2--2--2--2--3--3--3--3--3--3--3--3--
E|--------------------------------------------------
http://www.guitartabcreator.com
Guitar Tab Creator is intended to store guitar tab created through the tool. It currently does not support in-line text editing. Any text you place in here will be lost. If you need to comment on your tab, please use the "Tab Notes" section located below.