drop d

(/) Slide Up  (\) Slide Down  (h) Hammer On  (p) Pull Off  (b) Bend (r) Release (v) Vibrato


E|--------6-----5-------------------------------------------------6-----5-------------------
B|-----------------------------------6-----5------------------------------------------------
G|------------------------------------------------------------------------------------------
D|-----------------------------3------------------------------------------------------------
A|--------------------------3-----3-----3-----3--3--3--3--3/5--5-----5-----5--5--5--5--3/5--
E|--3--3-----3-----3--3--3------------------------------------------------------------------



E|-----6-----5-------------------5-----------------------------------------------------------
B|-------------------------------6-----------------------------------------------------------
G|-------------------------------7-----------------------------------------------------------
D|-------------------------------7-----------------------------------------------------------
A|--5-----5-----3--3--3--3--3/5--5-----------------------------------------------------------
E|----------------------------------0--0--0--0--3--0--0--4--0--0--3--0--2--2--0--0--0--0--3--



E|--------------------------------------------------------------------------------------------
B|--------------------------------------------------------------------------------------------
G|--------------------------------------------------------------------------------------------
D|--------------------------------------------------------------------------------------------
A|--------------------------------------------------------------------------------------------
E|--0--0--4--0--0--3--0--2--2--0--0--0--0--3--0--0--4--0--0--3--0--2--2--0--0--0--0--3--0--0--



E|-----------------------5--5--3--2--1--0-------5--5--3--2--1--0-------5--5--3--2--1--0-------
B|-----------------------7--7--5--4--3--2-------7--7--5--4--3--2-------7--7--5--4--3--2-------
G|-----------------------7--7--5--4--3--2-------7--7--5--4--3--2-------7--7--5--4--3--2-------
D|-----------------------7--7--5--4--3--2-------7--7--5--4--3--2-------7--7--5--4--3--2-------
A|-----------------------5--5--3--2--1--0--3/5--5--5--3--2--1--0--3/5--5--5--3--2--1--0--3/5--
E|--4--0--0--3--0--2--2-----------------------------------------------------------------------



E|--5--5--3--3--2--1--0-------5--5--3--2--1--0--------5--5--3--3--2--1--0-------5--5--3--2--1--
B|--7--7--5--5--4--3--2-------7--7--5--4--3--2--------7--7--5--5--4--3--2-------7--7--5--4--3--
G|--7--7--5--5--4--3--2-------7--7--5--4--3--2--------7--7--5--5--4--3--2-------7--7--5--4--3--
D|--7--7--5--5--4--3--2-------7--7--5--4--3--2--------7--7--5--5--4--3--2-------7--7--5--4--3--
A|--5--5--3--3--2--1--0--3/5--5--5--3--2--1--0--3--5--5--5--3--3--2--1--0--3/5--5--5--3--2--1--
E|---------------------------------------------------------------------------------------------



E|--0--3--5--5--5--5--5--5--5--5--3--3--3--3--3--3--3--3--2--2--2--2--2--2--2--2--1--1--1--1--
B|--2--5--7--7--7--7--7--7--7--7--5--5--5--5--5--5--5--5--4--4--4--4--4--4--4--4--3--3--3--3--
G|--2--5--7--7--7--7--7--7--7--7--5--5--5--5--5--5--5--5--4--4--4--4--4--4--4--4--3--3--3--3--
D|--2--5--7--7--7--7--7--7--7--7--5--5--5--5--5--5--5--5--4--4--4--4--4--4--4--4--3--3--3--3--
A|--0--3--5--5--5--5--5--5--5--5--3--3--3--3--3--3--3--3--2--2--2--2--2--2--2--2--1--1--1--1--
E|--------------------------------------------------------------------------------------------



E|--1--1--1--1--------------------------------------------------------------------------------
B|--3--3--3--3--------------------------------------------------------------------------------
G|--3--3--3--3--------------------------------------------------------------------------------
D|--3--3--3--3--3--3--3--3--3--3--3--3--5--5--5--5--4--4--4--4--3--3--3--3--3--3--3--3--5--5--
A|--1--1--1--1--3--3--3--3--3--3--3--3--5--5--5--5--4--4--4--4--3--3--3--3--3--3--3--3--5--5--
E|--------------3--3--3--3--3--3--3--3--5--5--5--5--4--4--4--4--3--3--3--3--3--3--3--3--5--5--



E|--------------------------------------------------------------------------------------------
B|--------------------------------------------------------------------------------------------
G|--------------------------------------------------------------------------------------------
D|--5--5--4--4--4--4--3--3--3--3--3--3--3--3--5--5--5--5--4--4--4--4--3--3--3--3--3--3--3--3--
A|--5--5--4--4--4--4--3--3--3--3--3--3--3--3--5--5--5--5--4--4--4--4--3--3--3--3--3--3--3--3--
E|--5--5--4--4--4--4--3--3--3--3--3--3--3--3--5--5--5--5--4--4--4--4--3--3--3--3--3--3--3--3--



E|--------------------------5--5--3--3--2--1--0-------5--5--3--2--1--0-------5--5--3--3--2--1--
B|--------------------------7--7--5--5--4--3--2-------7--7--5--4--3--2-------7--7--5--5--4--3--
G|--------------------------7--7--5--5--4--3--2-------7--7--5--4--3--2-------7--7--5--5--4--3--
D|--5--5--5--5--4--4--4--4--7--7--5--5--4--3--2-------7--7--5--4--3--2-------7--7--5--5--4--3--
A|--5--5--5--5--4--4--4--4--5--5--3--3--2--1--0--3/5--5--5--3--2--1--0--3/5--5--5--3--3--2--1--
E|--5--5--5--5--4--4--4--4---------------------------------------------------------------------



E|--0--3--5--5--5--5--5--5--5--5--3--3--3--3--3--3--3--3--2--2--2--2--2--2--2--2--1--1--1--1--
B|--2--5--7--7--7--7--7--7--7--7--5--5--5--5--5--5--5--5--4--4--4--4--4--4--4--4--3--3--3--3--
G|--2--5--7--7--7--7--7--7--7--7--5--5--5--5--5--5--5--5--4--4--4--4--4--4--4--4--3--3--3--3--
D|--2--5--7--7--7--7--7--7--7--7--5--5--5--5--5--5--5--5--4--4--4--4--4--4--4--4--3--3--3--3--
A|--0--3--5--5--5--5--5--5--5--5--3--3--3--3--3--3--3--3--2--2--2--2--2--2--2--2--1--1--1--1--
E|--------------------------------------------------------------------------------------------



E|--1--1--1--1--------------------------------------------------------------------------------
B|--3--3--3--3--------------------------------------------------------------------------------
G|--3--3--3--3--------------------------------------------------------------------------------
D|--3--3--3--3--3--3--3--3--3--3--3--3--5--5--5--5--4--4--4--4--3--3--3--3--3--3--3--3--5--5--
A|--1--1--1--1--3--3--3--3--3--3--3--3--5--5--5--5--4--4--4--4--3--3--3--3--3--3--3--3--5--5--
E|--------------3--3--3--3--3--3--3--3--5--5--5--5--4--4--4--4--3--3--3--3--3--3--3--3--5--5--



E|--------------------------------------------------------------------------------------------
B|--------------------------------------------------------------------------------------------
G|--------------------------------------------------------------------------------------------
D|--5--5--4--4--4--4--3--3--3--3--3--3--3--3--5--5--5--5--4--4--4--4--3--3--3--3--3--3--3--3--
A|--5--5--4--4--4--4--3--3--3--3--3--3--3--3--5--5--5--5--4--4--4--4--3--3--3--3--3--3--3--3--
E|--5--5--4--4--4--4--3--3--3--3--3--3--3--3--5--5--5--5--4--4--4--4--3--3--3--3--3--3--3--3--



E|--------------------------------------------------------------1--4p1-----1--------------------
B|-----------------------------------------------------------1----------4-----4p1---------------
G|---------------------------------------------------------------------------------3v--3v--3p1--
D|--5--5--5--5--4--4--4--4-------------------1v------1v--3v-------------------------------------
A|--5--5--5--5--4--4--4--4----------1--2--3------3v---------------------------------------------
E|--5--5--5--5--4--4--4--4--3v--6v--------------------------------------------------------------



E|--------4/6--6b6--6p4-----4------------------------------------------------------------------
B|-----------------------6-----6p4-------------------------------------------------------------
G|-----1----------------------------5v--5b5--5v--5p3--1v------5--3--1--5--3--1--5--3--1--5--3--
D|--3-----------------------------------------------------3v-----------------------------------
A|---------------------------------------------------------------------------------------------
E|---------------------------------------------------------------------------------------------



E|--------------------------------------------------------------------------------------------
B|--------------------------------------------------------------------------------------------
G|--1--5--3--1--5--3--1--5--3--1--5--3--1--5--3--1--5--3--1--5--3--1--5--3--1--5b5--5v--------
D|--------------------------------------------------------------------------------------5--3--
A|--------------------------------------------------------------------------------------------
E|--------------------------------------------------------------------------------------------



E|----------------------------------------------------------------------------5--5--3--2--1--
B|----------------------------------------------------------------------------7--7--5--4--3--
G|----------------------------------------------------------------------------7--7--5--4--3--
D|--1--5--2--1--5--3--1--5--2--1--5--3--1--5--2--1--5--3--1--5--2--1--5b6b5v--7--7--5--4--3--
A|----------------------------------------------------------------------------5--5--3--2--1--
E|-------------------------------------------------------------------------------------------



E|--0--------5--5--3--3--2--1--0-------5--5--3--2--1--0--3--5--5--5--5--5--5--5--5--5--3--3--
B|--2--------7--7--5--5--4--3--2-------7--7--5--4--3--2--5--7--7--7--7--7--7--7--7--7--5--5--
G|--2--------7--7--5--5--4--3--2-------7--7--5--4--3--2--5--7--7--7--7--7--7--7--7--7--5--5--
D|--2--------7--7--5--5--4--3--2-------7--7--5--4--3--2--5--7--7--7--7--7--7--7--7--7--5--5--
A|--0--3--5--5--5--3--3--2--1--0--3/5--5--5--3--2--1--0--3--5--5--5--5--5--5--5--5--5--3--3--
E|-------------------------------------------------------------------------------------------



E|--3--3--3--3--3--3--2--2--2--2--2--2--2--2--1--1--1--1--1--1--1--1-----6-----5--------------
B|--5--5--5--5--5--5--4--4--4--4--4--4--4--4--3--3--3--3--3--3--3--3--------------------------
G|--5--5--5--5--5--5--4--4--4--4--4--4--4--4--3--3--3--3--3--3--3--3--------------------------
D|--5--5--5--5--5--5--4--4--4--4--4--4--4--4--3--3--3--3--3--3--3--3--3-----3-----3--3--3-----
A|--3--3--3--3--3--3--2--2--2--2--2--2--2--2--1--1--1--1--1--1--1--1--3-----3-----3--3--3--3--
E|--------------------------------------------------------------------3-----3-----3--3--3-----



E|-----3-----------3--3--3--3--3--5--5--6-----5--------------3--5--5--6-----5-----
B|-----5--6-----5--5--5--5--5--5--7--6-----------------------5--7--6--------------
G|-----5--5--5--5--5--5--5--5--5--7--7-----7-----7--7--7--7--5--7--7-----7--------
D|--3--5--5--5--5--5--5--5--5--5--7--7-----7-----7--7--7--7--5--7--7-----7--------
A|-----3-----3-----3--3--3--3--3--5--5-----5-----5--5--5--5--3--5--5-----5--------
E|--------------------------------------------------------------------------------
http://www.guitartabcreator.com
Guitar Tab Creator is intended to store guitar tab created through the tool. It currently does not support in-line text editing. Any text you place in here will be lost. If you need to comment on your tab, please use the "Tab Notes" section located below.