Track 5 Tab 1


E|----------------------
B|----------------------
G|-----8----9-------8---
D|--11---11---11-11---11
A|----------------------
E|----------------------

E|----------------------
B|----------------------
G|-----8----9-------8--9
D|--11---11---11-11-----
A|----------------------
E|----------------------
Guitar Tab Creator is intended to store guitar tab created through the tool. It currently does not support in-line text editing. Any text you place in here will be lost. If you need to comment on your tab, please use the "Tab Notes" section located below.