Seaways Apart Tab 3

E|--3-3-3-3--5-5-5-5-5
B|--3-3-3-3--0-0-0-0-0
G|--0-0-0-0--0-0-0-0-0
D|--------------------
A|--------------------
E|-------------------- x2

E|--3-3-3-3--5-5-5-5-5--6-6-6-6--3-3-3-3-3
B|--3-3-3-3--0-0-0-0-0--0-0-0-0--3-3-3-3-3
G|--0-0-0-0--0-0-0-0-0--0-0-0-0--0-0-0-0-0
D|----------------------------------------
A|----------------------------------------
E|----------------------------------------
Guitar Tab Creator is intended to store guitar tab created through the tool. It currently does not support in-line text editing. Any text you place in here will be lost. If you need to comment on your tab, please use the "Tab Notes" section located below.