Seaways Apart Tab 1

(/) Slide Up  (\) Slide Down  (h) Hammer On  (p) Pull Off  (b) Bend (r) Release (v) Vibrato
E|-----------
B|-----3-----
G|--------0--
D|-----------
A|--3--------
E|-----------



E|-----------
B|-----3-----
G|--------0--
D|-----------
A|--2--------
E|-----------



E|-----------
B|-----3-----
G|--------0--
D|--1--------
A|-----------
E|-----------



E|-----------
B|-----3-----
G|--------0--
D|--0--------
A|-----------
E|-----------
http://www.guitartabcreator.com
Guitar Tab Creator is intended to store guitar tab created through the tool. It currently does not support in-line text editing. Any text you place in here will be lost. If you need to comment on your tab, please use the "Tab Notes" section located below.