Seaways Apart

E|-----------     
B|-----3-----
G|--------0--
D|-----------
A|--2--------
E|----------- x4



E|-----------
B|-----3-----
G|--------0--
D|-----------
A|--2--------
E|----------- x4



E|-----------
B|-----3-----
G|--------0--
D|--1--------
A|-----------
E|----------- x4



E|-----------
B|-----3-----
G|--------0--
D|--0--------
A|-----------
E|----------- x4


Storm clouds hang so low (3)
Shaken up and drown away (4)
Im always Keeping you in thought (3)
You know swim this ocean between us (5)

Eyes look off into the sea (3)
Poisons run through fondest hearts (4)
The absence killing everyday (3)
I know we both feel the same way (5)

I know one day ill see the sun (1)
Clouds disjoin,(2) morning has come (6)
Ill sunder distance,(1) ill call, ill wait (2)
Its a newly risen chance (6)
And I hope you're waiting there(6) for me (1)

Our minds so close and lands apart (3)
We ponder all the irony (4)
Brace for this, brace your heart (3)
Harsh reality cant stop me (4)

Eyes look off (3)into the sea (6)
Poisons run through(3) fondest hearts (6)
The absence killing(3) everyday (6)
I know we both feel the(3) same way (6)

I know one day ill see the sun (1)
Clouds disjoin,(2) morning has come (6)
Ill sunder the distance,(1) ill call, ill wait (2)
Its a newly risen chance(6)
And I hope you're waiting there(6) for me (1)

E|--3-3-3-3--5-5-5-5-5
B|--3-3-3-3--0-0-0-0-0
G|--0-0-0-0--0-0-0-0-0
D|--------------------
A|--------------------
E|-------------------- x2

E|--3-3-3-3--5-5-5-5-5--6-6-6-6--3-3-3-3-3
B|--3-3-3-3--0-0-0-0-0--0-0-0-0--3-3-3-3-3
G|--0-0-0-0--0-0-0-0-0--0-0-0-0--0-0-0-0-0
D|----------------------------------------
A|----------------------------------------
E|----------------------------------------

Life is short, please try your best (1)
I know its not easy, i swear its worth it (2)
Ill be here for you, whenever and wherever (1)
This ocean between us (2), it seems like its forever (1)

E|-----------
B|-----3-----
G|--------0--
D|-----------
A|--3--------
E|----------- x2



E|-----------
B|-----3-----
G|--------0--
D|-----------
A|--2--------
E|----------- x2



E|-----------
B|-----3-----
G|--------0--
D|--1--------
A|-----------
E|----------- x2



E|-----------
B|-----3-----
G|--------0--
D|--0--------
A|-----------
E|----------- x2

E|---------3-
B|-----3---3-
G|---------0-
D|--0------0-
A|---------0-
E|---------0-
Guitar Tab Creator is intended to store guitar tab created through the tool. It currently does not support in-line text editing. Any text you place in here will be lost. If you need to comment on your tab, please use the "Tab Notes" section located below.