Untitled 2

(/) Slide Up  (\) Slide Down  (h) Hammer On  (p) Pull Off  (b) Bend (r) Release (v) Vibrato


E|--------------------------------------
B|--------------3-----------------3-----
G|--------4--------4--------4--------4--
D|-----5-----5-----------5-----5--------
A|--0-----------------0-----------------
E|--------------------------------------



E|--------------------------------------
B|--------------3-----------------3-----
G|--------0--------0--------0--------0--
D|-----4-----4-----------4-----4--------
A|--5-----------------5-----------------
E|--------------------------------------



E|--------------------------------------
B|--------------5-----------------5-----
G|--------6--------6--------6--------6--
D|-----7-----7-----------7-----7--------
A|--0-----------------0-----------------
E|--------------------------------------



E|--------------------------------------
B|--------------1-----------------1-----
G|--------2--------2--------2--------2--
D|-----3-----3-----------3-----3--------
A|--0-----------------0-----------------
E|--------------------------------------



E|--------------------------------------
B|--------------0-----------------0-----
G|--------0--------0--------0--------0--
D|-----2-----2-----------2-----2--------
A|--3-----------------3-----------------
E|--------------------------------------



E|--------------------------------------
B|--------------3-----------------1-----
G|--------0--------0--------0--------0--
D|-----2-----2-----------2-----2--------
A|--3-----------------3-----------------
E|--------------------------------------
http://www.guitartabcreator.com
Guitar Tab Creator is intended to store guitar tab created through the tool. It currently does not support in-line text editing. Any text you place in here will be lost. If you need to comment on your tab, please use the "Tab Notes" section located below.