Untitled

(/) Slide Up  (\) Slide Down  (h) Hammer On  (p) Pull Off  (b) Bend (r) Release (v) Vibrato

E|--
B|--
G|--
D|--
A|--
E|--



E|--------------------------------------------------------------------------------------------------
B|--------------------------------------------------------------------------------------------------
G|--------------------------------------------------------------------------------------------------
D|--------------------------------------------------------------------------------------------------
A|--------5--------5-----7--------5--------8-----7--------5--------5-----7--------------5--7--8-----
E|--5--5-----5--5-----5-----5--5-----5--5-----5-----5--5-----5--5-----5-----8--7--5--7-----------7--



E|--------------------------------------------------------------------------------------
B|--------------------------------------------------------------------------------------
G|--------------------------------------------------------------------------------------
D|-----------------------------------------------------------------5--------4-----------
A|-----------------------------------------------------------------------------------3--
E|--3p0--0--0--0--0--0--0--0--0--3h4p3--2--2--2--2--2--2--2--2--2-----2--2-----2--2-----
http://www.guitartabcreator.com
Guitar Tab Creator is intended to store guitar tab created through the tool. It currently does not support in-line text editing. Any text you place in here will be lost. If you need to comment on your tab, please use the "Tab Notes" section located below.