A Song To Sleep Too

(/) Slide Up  (\) Slide Down  (h) Hammer On  (p) Pull Off  (b) Bend (r) Release (v) Vibrato


E|----------------------------------------------------------------------
B|----------------------------------------------------------------------
G|----------------------------------------------------------------------
D|--------2--------2--------2--1-------------1--------1--------1--------
A|-----4--------4--------4--------2-------2--------2--------2-----4--2--
E|--4--------4--------4----------------2--------2--------2--------------



E|-------------------------------------------------------------------------------
B|-----------------------7------------------------------7------------------------
G|--------------------------13--11--9----------9--8--------8---------------------
D|--6--4-----------------------------------11--------9--------11--9--6-----6--7--
A|--------7--6-----6--9--9-------------11---------------9---------------7-----7--
E|--------------7-------------------------------------------------------------5--



E|----------------------------------------------------------------------
B|----------------------------------------------------------------------
G|----------------------------------------------------------------------
D|--------2--------2--------2--1-------------1--------1--------1--------
A|-----4--------4--------4--------2-------2--------2--------2-----4--2--
E|--4--------4--------4----------------2--------2--------2--------------



E|-----------------------------------------------------------------------------------------
B|--------4---------------------7-------------------------------------------------------7--
G|-----------------------8-----------------------------------------------------------------
D|-----4-----6--------9-----11-----------6--11--9------------------9--6--------6--9--------
A|--2-----------9--9------------9-----7------------11--7-----6--9--------7--6--------9--9--
E|---------------------------------9----------------------7--------------------------------



E|------------------------------------------------
B|--------7--------------7------------------------
G|--8--------8--------6-----8---------------------
D|-----9--------9--7-----------9--------------14--
A|--------------------------------9--6-----6--12--
E|--------------------------------------7-----12--



E|--------------------------------------------------------------------
B|--------------------------------------------------------------------
G|--------------------------------------------------------------------
D|--------2--------2--------2--1-----------1--------1--------1--------
A|-----4--------4--------4--------2-----2--------2--------2-----4--2--
E|--4--------4--------4--------------2--------2--------2--------------



E|-----------------------------------
B|-----------------------------7-----
G|--------4--8--6--------------------
D|-----4-----------9--6-----6--------
A|--6--------------------7-----9-----
E|-----------------------------------



E|---------------------------------------------------
B|------------------------------------------------7--
G|----------11--14--13--9------------8--11--9--8-----
D|------11-----------------11-----9------------------
A|--12-------------------------9------------------9--
E|---------------------------------------------------



E|--------------------------------------------------------------------
B|--14--12------------------------------------------------------------
G|----------13----------------------9--8--------11--8-----------------
D|--------------14--13----------11--------9------------9--7--------7--
A|----------------------14--11---------------9---------------9--6--7--
E|-----------------------------------------------------------------5--
http://www.guitartabcreator.com
Guitar Tab Creator is intended to store guitar tab created through the tool. It currently does not support in-line text editing. Any text you place in here will be lost. If you need to comment on your tab, please use the "Tab Notes" section located below.