Solo Verse

(/) Slide Up  (\) Slide Down  (h) Hammer On  (p) Pull Off  (b) Bend (r) Release (v) Vibrato


E|--------------------------------------------------------------------------------------------------
B|-----------------------12--10---------------------------------------------------7--5--------------
G|--------------------9----------12--9--11------------12--11--9----------------5--------7--4--5-----
D|--7--9-----------9-------------------------------9-------------10--12-----5-----------------------
A|--------2/7--10-------------------------------9------------------------7--------------------------
E|------------------------------------------10------------------------------------------------------



E|---------------------------
B|---------------------------
G|-----------9--7------------
D|--------7--------10--7--9--
A|-----7---------------------
E|--8------------------------
http://www.guitartabcreator.com
Guitar Tab Creator is intended to store guitar tab created through the tool. It currently does not support in-line text editing. Any text you place in here will be lost. If you need to comment on your tab, please use the "Tab Notes" section located below.