Solo Part 2 for Song in E-minor

(/) Slide Up  (\) Slide Down  (h) Hammer On  (p) Pull Off  (b) Bend (r) Release (v) Vibrato


E|------15--12----------14--12-----------------------------------------------------------
B|--15----------15--12----------15--13---------------------------------------------------
G|--------------------------------------14b15r12\9--12--11--12--11-----------------------
D|------------------------------------------------------------------12--10--10--9--9-----
A|---------------------------------------------------------------------------------------
E|---------------------------------------------------------------------------------------



E|--------------------------------10--12p10----------------10------------------------
B|------------------------10--12-------------12--12h13p12------13--12--10--12--------
G|-----------------9--12-------------------------------------------------------9--9--
D|----------9--12--------------------------------------------------------------------
A|--10--12---------------------------------------------------------------------------
E|-----------------------------------------------------------------------------------
http://www.guitartabcreator.com
Guitar Tab Creator is intended to store guitar tab created through the tool. It currently does not support in-line text editing. Any text you place in here will be lost. If you need to comment on your tab, please use the "Tab Notes" section located below.