Solo Part 1 for Song in E-minor

(/) Slide Up  (\) Slide Down  (h) Hammer On  (p) Pull Off  (b) Bend (r) Release (v) Vibrato

E|---------------------------------------------------------------------------------------
B|---------------------------------------------------------------------------------------
G|---------------------------------------------------------------------------------------
D|-----------------14b15--12--14--12--14--12---------------------------------------------
A|---------15--12-----------------------------12--15--12----------15---------------------
E|--15p12---------------------------------------------12--15--12------12--15--12--12-----



E|---------------------------------------------------------------------
B|---------------------------------------------------------------------
G|----------------------------------9--12------------------------------
D|------12--------------14b15r12\9---------9--12------9--12------9--9--
A|--15--12----------15----------------------------10---------10--------
E|------12--15--12-----------------------------------------------------
http://www.guitartabcreator.com
Guitar Tab Creator is intended to store guitar tab created through the tool. It currently does not support in-line text editing. Any text you place in here will be lost. If you need to comment on your tab, please use the "Tab Notes" section located below.