Solo Intro and Outro

(/) Slide Up  (\) Slide Down  (h) Hammer On  (p) Pull Off  (b) Bend (r) Release (v) Vibrato


E|--------------------------8--5h7p5-----5--
B|--8--------------------------5------8-----
G|-----9--7------9-------------5------------
D|-----------10-----10----------------------
A|--7-------------------10-----0------------
E|---------------8--------------------------



E|--7--7--7--7--7--7--7--7----8---8---8---8---8---5----------------
B|--8--8--8--8--8--8--8--8----8---8---8---8---8---5----------------
G|--9--9--9--9--7--9--7--9----9---9---9---9---9---5----------------
D|--9--9--9--9--9--9--9--9----10--10--10--10--10--7----------------
A|--7--7--7--7--7--7--7--7----10--10--10--10--10--7----------5--7--
E|----------------------------8---8---8---8---8---5----5--7--------
http://www.guitartabcreator.com
Guitar Tab Creator is intended to store guitar tab created through the tool. It currently does not support in-line text editing. Any text you place in here will be lost. If you need to comment on your tab, please use the "Tab Notes" section located below.