Soft Slow Deep Rifts

(/) Slide Up  (\) Slide Down  (h) Hammer On  (p) Pull Off  (b) Bend (r) Release (v) Vibrato


E|--------------------------------------------------
B|--1-----------------------------------------------
G|-----2-----2--0--------0-----------0--------0-----
D|--------2--------2--0-----------4-----4--0-----2--
A|-----------------------------2--------------------
E|--------------------------0-----------------------



E|-----------------------
B|-----------------------
G|-----------------------
D|-----------------0--2--
A|--------5--3--0--------
E|--0--0-----------------



E|--------------------
B|--------------------
G|--------------------
D|--------------0--2--
A|-----0--------------
E|--3-----3--0--------
http://www.guitartabcreator.com
Guitar Tab Creator is intended to store guitar tab created through the tool. It currently does not support in-line text editing. Any text you place in here will be lost. If you need to comment on your tab, please use the "Tab Notes" section located below.