Sea Green Parts 4, 5, 6

(/) Slide Up  (\) Slide Down  (h) Hammer On  (p) Pull Off  (b) Bend (r) Release (v) Vibrato


E|-----3-----3-----------3-----3-----------3--------
B|-----0-----0-----------0-----0-----------0--------
G|--2--0--2--0--2-----2--0--2--0--2-----2--0--2-----
D|--2--0--2--0--2--5--2--0--2--0--2--5--2--0--2--5--
A|--0--2--0--2--0--3--0--2--0--2--0--3--0--2--0--3--
E|-----3-----3-----------3-----3-----------3--------



E|--------------------------
B|--------------------------
G|--------------------------
D|--------------------5--7--
A|--9--9--9--9--7--5--3--5--
E|--7--7--7--7--5--3--------



E|------------------------------------------------------------------------------------
B|------------------------------------------------------------------------------------
G|--2--2------2--------2--------------------------------------------------2-----------
D|--2--2------2--2--9--2--2--9----------------------5--3--5--7--7--7------2--9--5--7--
A|--0--0------0--2--7--0--2--7----4--4--4--7--7--7--3--------5--5--5------0--7--3--5--
E|---------------0--------0-------2--2--2--5--5--5------------------------------------
http://www.guitartabcreator.com
Guitar Tab Creator is intended to store guitar tab created through the tool. It currently does not support in-line text editing. Any text you place in here will be lost. If you need to comment on your tab, please use the "Tab Notes" section located below.