Sea Green Parts 1, 2, 3

(/) Slide Up  (\) Slide Down  (h) Hammer On  (p) Pull Off  (b) Bend (r) Release (v) Vibrato


E|--------------------
B|--------------------
G|--2-----2-----------
D|--2--------5--4--2--
A|--0--------3--------
E|-----3--------------



E|-----------------------------------------
B|-----------------------------------------
G|--------4--------4--------4--------------
D|-----5--------2--------2-----5--4--0--4--
A|--3--------3--------2--------------------
E|-----------------------------------------



E|-----------0-----------0-----------0-----------0--
B|--3-----------1-----------0-----------------------
G|-----2-----------2-----------2--------2-----------
D|--------2-----------2-----------2--------2--0-----
A|--------------------------------------------------
E|--------------------------------------------------
http://www.guitartabcreator.com
Guitar Tab Creator is intended to store guitar tab created through the tool. It currently does not support in-line text editing. Any text you place in here will be lost. If you need to comment on your tab, please use the "Tab Notes" section located below.