Rough

(/) Slide Up  (\) Slide Down  (h) Hammer On  (p) Pull Off  (b) Bend (r) Release (v) Vibrato

E|----------------------------------------------------------------------
B|----------------------------------------------------------------------
G|----------------------------------------------------------4--2--------
D|------------------------------------------5--2-----4h5----------0--2--
A|--0--0--0--3--------------0--3--2--0------------0---------------------
E|--------------0--3--3--3----------------------------------------------



E|----------------------------------------
B|----------------------------------------
G|----------------------------------------
D|-2-2-2--2-2-2--2-2-2------------2-2-----
A|-2-2-2--2-2-2--2-2-2--5-5-6p5---2-2-3p2-
E|-0-0-0--0-0-0--0-0-0--3-3-------0-0-----



E|--------------------------------------------------------------
B|--------------------------------------------------------------
G|-----------------------------------7-----------------------7--
D|--2\7-----------2----2\7--------9-----10--9------0--4\7h5-----
A|-------8--5--7--2---------8--5---------------10---------------
E|----------------0---------------------------------------------

Stave 1:

E|-----------------------------------------------------
B|-----------------------------------------------------
G|-----------------------------------------------------
D|--3--3--3--3--3--3--3--3--6--6--6--6--6--6--6--6-----
A|--3--3--3--3--3--3--3--3--6--6--6--6--6--6--6--6-----
E|--1--1--1--1--1--1--1--1--4--4--4--4--4--4--4--4-----

Stave 2:

E|-------------------------------------------------------
B|-------------------------------------------------------
G|-------------------------------------------------------
D|-------------------------------------------------------
A|--7--7--7--7--7--7--7--7--7--7--5--2------5h7--5--2--7\
E|--0--0--0--0--0--0--0--0--0--0--0--0------0-0--0--0--0-

Stave 3:

E|--------------------------------------------
B|--------------------------------------------
G|--9-----------------------------------------
D|-----10--12--0--9--10--0--7--9--0--5--7--0--
A|--------------------------------------------
E|--------------------------------------------

Stave 4:

E|--------------------------------------
B|--------------------------------------
G|--------------------------------------
D|-----7--9-----7--9--0--7--9--0--7--9--
A|--8--------7--------------------------
E|--------------------------------------

Stave 5:

E|--------2--------------2--------------7--------------7-----------------7--10--3--
B|-----0-----3--0-----0-----3--0-----5-----8--5-----5-----8--5--------8---------0--
G|--0--------------0--------------5--------------5-----------------7------------0--
D|--------------------------------------------------------------9------------------
A|---------------------------------------------------------------------------------
E|---------------------------------------------------------------------------------

Stave 6:

E|----------------------12-------------------8-------------------6--
B|------------------10--------------------8-------------------3-----
G|--------------10---------------------5-------------------3--------
D|----------12----------------------7-------------------3-----------
A|------12-----------------------7-------------------5--------------
E|--10------------------------5-------------------3-----------------

http://www.guitartabcreator.com
Guitar Tab Creator is intended to store guitar tab created through the tool. It currently does not support in-line text editing. Any text you place in here will be lost. If you need to comment on your tab, please use the "Tab Notes" section located below.