Riff for your song

(/) Slide Up  (\) Slide Down  (h) Hammer On  (p) Pull Off  (b) Bend (r) Release (v) Vibrato

E|--------------------------------------------------------------------------------------------
B|--------------------------------------------------------------------------------------------
G|--------------------------------------------------------------------------------------------
D|--------2-----------5--------------2-----------4--------------2-----------3--------------2--
A|-----2-----------3--------------2-----------2--------------2-----------1--------------2-----
E|--0--------0--0--------0--0--0--------0--0--------0--0--0--------0--0--------0--0--0--------



E|-----------------
B|-----------------
G|-----------------
D|-----------------
A|-----------7-----
E|--0--0--5--------



E|-------0--3------------------------0--3-----2-----3p2----------0--3-----
B|--0h3----------3--0--------0--0h3--------3-----3-------3--0h3--------3--
G|---------------------0--------------------------------------------------
D|------------------2-----2-------------------0---------------------------
A|---------------2-------------------------2---------------------------2--
E|------------------------------------------------------------------------



E|-----------------------------------------------------------------------------------------
B|-----------------------------------------------------------------------------------------
G|-----------------------------------------------------------------------------------------
D|----------------------------------------------------------------------9h10p9-------------
A|------------------------------------------------------------------------------10b12------
E|--12--12--12--12--7--7--7--7--10--10--10--10--8--8--8--8--7--7--7--7-----------------12--



E|------------------------
B|------------------------
G|----------12-----11-----
D|--9h10p9------9------9--
A|------------------------
E|------------------------
http://www.guitartabcreator.com
Guitar Tab Creator is intended to store guitar tab created through the tool. It currently does not support in-line text editing. Any text you place in here will be lost. If you need to comment on your tab, please use the "Tab Notes" section located below.