Riff #5

(/) Slide Up  (\) Slide Down  (h) Hammer On  (p) Pull Off  (b) Bend (r) Release (v) Vibrato

E|----------------------------------------------------------
B|----------------------------------------------------------
G|----------------------------------------------------------
D|--7--5--7--3--3--3--3--7--5--3--3--3--3-------3--3--3--3--
A|--7--5--7--3--3--3--3--7--5--3--3--3--3--1h3--3--3--3--3--
E|--5--3--5--1--1--1--1--5--3--1--1--1--1-------1--1--1--1--



E|-----------------------------------------------------------------------------------------------
B|-----------------------------------------------------------------------------------------------
G|-----------------------------------------------------------------------------------------------
D|-----------------------------------------------------------------------------------------------
A|--5--------3-----5-----5--------3-----5--3-----------7--------5-----7-----7--------5-----7-----
E|--3--3--3-----3-----3--3--3--3-----3--------5--4--3--5--5--5-----5-----5--5--5--5-----5--------



E|--------------
B|--------------
G|--------------
D|--------------
A|--5-----------
E|-----7--6--5--



E|-----------------------------------------------------------------------
B|-----------------------------------------------------------------------
G|-----------------------------------------------------------------------
D|--3--5--7--------------7--------------5--------------------------------
A|--3--5--7--5--8--7--5-----5--8--7--5-----5--8--7--5--8--5--8--7--5--7--
E|--1--3--5--------------------------------------------------------------
http://www.guitartabcreator.com
Guitar Tab Creator is intended to store guitar tab created through the tool. It currently does not support in-line text editing. Any text you place in here will be lost. If you need to comment on your tab, please use the "Tab Notes" section located below.