RED

(/) Slide Up  (\) Slide Down  (h) Hammer On  (p) Pull Off  (b) Bend (r) Release (v) Vibrato

Stave 1:

E|---------------------------------------------------------------------------------
B|-----8-7-----8-------7-5-----5-------5-3-----3-------1-0-----0-------------------
G|---9-----9-7---7---7-----7-5---5---4-----5-4---4---2-----2-0---0-----4-2-0---4---
D|-7---------------5---------------2---------------0-----------------4-------4---4-
A|-----------------------------------------------------------------2---------------
E|---------------------------------------------------------------------------------

Stave 2:

E|--------------------------------------------------------------------------------------
B|--------------------------------------------------------------------------------------
G|--------------------------------------------------------------------------------------
D|--------------------------------------------------------------------------------------
A|-4-4-4-------4-4-4-------4-4-4-12-12-12---10-10-10---9-9-9--------------------------7-
E|-2-2-2-0-0-0-2-2-2-0-0-0-2-2-2-10-10-10-0-8--8--8--0-7-7-7-0--0-2-3-0-2-3-5-0-2-3-5---

Stave 3:

E|------------------
B|------------------
G|------------------
D|------------------
A|----7-5-4-2-5-4-2-
E|----5-3-2-0-3-2-0-

Stave 4:

E|-----------------------------------------------------
B|-----------------------------------------------------
G|-----------------------------------------------------
D|---2/9-10---4/10-------------7-------------5-4---4---
A|-3--------5------7-------2/9-----------2/7-----5---7-
E|-------------------0-2-5-------8-7-2-0---------------

Stave 5:

E|---------------------------
B|---------------------------
G|---------------------------
D|-12-10-9-9-9-7-5-5-5-4-2-2-
A|-10------7-7-----3-3-----0-
E|---------------------------

Stave 6:

E|-------------------------------------------------
B|-------------------------------------------------
G|-------------------------------------------------
D|-------------------------------------------------
A|---7-------5---5-------3---3-------2---2-------0-
E|-0---8-5-0---0---8-5-0---0---5-2-0---0---3-2-0---

Stave 7:

E|-------------
B|-------------
G|-------------
D|-------------
A|---4-5-----4-
E|-0-2-3-0-0-2-

http://www.guitartabcreator.com
Guitar Tab Creator is intended to store guitar tab created through the tool. It currently does not support in-line text editing. Any text you place in here will be lost. If you need to comment on your tab, please use the "Tab Notes" section located below.