Jam song (whole)

(/) Slide Up  (\) Slide Down  (h) Hammer On  (p) Pull Off  (b) Bend (r) Release (v) Vibrato

E|-----------------------------------------------------------------------------------------------
B|-----------------------------------------------------------------------------------------------
G|--------------------------------------7-----------------------------------------------7--5-----
D|--------2--------------------7-----5-----------------------------------------7-----5-----------
A|-----2-----3--2h3p2p2-----5-----3-----------2--2-----2--2--3--2h3p2p2-----5-----3--------------
E|--0--------------------3-----------------0--------0--------------------3-----------------------



E|---------------------------------------------------------------------------------------------------
B|---------------------------------------------------------------------------------------------------
G|--4h5p2--4--4--2-----------------------------------------------------------------------------------
D|------------------5--2--4-----------0--2--2/4--5--4--2--4-----2/4--5--4--2--5--2/4--5--4--2--4-----
A|---------------------------2--0--2-------------------------2------------------------------------2--
E|---------------------------------------------------------------------------------------------------



E|----------------------------------------------------------------------------------------------
B|----------------------------------------------------------------------------------------------
G|----------------4--4--2--0--------------------------------------------------------------------
D|--2/4--5--4--2--------------4--0--2--2/4--5--4--2--4-----2/4--5--4--2--5--2/4--5--4--2--4-----
A|------------------------------------------------------2------------------------------------2--
E|----------------------------------------------------------------------------------------------



E|----------------------------------------------------------------------------------
B|-------------------------5--------------------------------------------------------
G|----------------4--4--7-----7--4--7-----4-----------------------------------------
D|--2/4--5--4--2-----------------------7-----0--0--0h2--2--0--0--0h2--2/5--4--0-----
A|-------------------------------------------------------------------------------2--
E|----------------------------------------------------------------------------------



E|-----------------------------------------
B|-----------------------------------------
G|-----------------------------------------
D|--2--2--2--5--7--2--2--2--5--7--9--7--9--
A|--2--2--2--3--5--2--2--2--3--5--7--5--7--
E|--0--0--0--------0--0--0-----------------



E|---------------------------------------------------------------------------------
B|---------------------------------------------------------------------------------
G|---------------------------------------------------------------------------------
D|------------7------------9------------7------------10------------7------------9--
A|--7--9--10-----10--9--7-----7--9--10-----10--9--7------7--9--10-----10--9--7-----
E|---------------------------------------------------------------------------------
http://www.guitartabcreator.com
Guitar Tab Creator is intended to store guitar tab created through the tool. It currently does not support in-line text editing. Any text you place in here will be lost. If you need to comment on your tab, please use the "Tab Notes" section located below.