Heavy Cowboy

(/) Slide Up  (\) Slide Down  (h) Hammer On  (p) Pull Off  (b) Bend (r) Release (v) Vibrato


E|--------------------------------------------------------------------------------------------
B|--------------------------------------------------------------------------------------------
G|--------------------------------------------------------------------------------------------
D|-----2--4-----------2--4--2--4--4--4--4--2--4--7--7--4--2--4--7/9p7h9--5--7-----------------
A|--4-----------2--4--------2--4--4--4--4--2--4--7--7--4--2--4--5-7------5--5--5--5--5--4-----
E|-----------2--------------0--2--2--2--2--0--2--5--5--2--0--2-----------3--5-----------------



E|--------------------------------------------------------------------------------------
B|--------------------------------------------------------------------------------------
G|--------------------------------------------------------------------------------------
D|-----------------------------------------0--2-----------0--2--------------0--2--------
A|--4--4--2--2--2--0--2--5--5--5--4--0--2--------2--0--2--------0--2--0--2--------0--2--
E|--------------------------------------------------------------------------------------



E|--
B|--
G|--
D|--
A|--
E|--
http://www.guitartabcreator.com
Guitar Tab Creator is intended to store guitar tab created through the tool. It currently does not support in-line text editing. Any text you place in here will be lost. If you need to comment on your tab, please use the "Tab Notes" section located below.