Growl

(/) Slide Up  (\) Slide Down  (h) Hammer On  (p) Pull Off  (b) Bend (r) Release (v) Vibrato


E|-----------------------------------------------------------------
B|-----------------------------------------------------------------
G|-----------------------------------------------------------------
D|-----------------------------------------0--2--0-----------------
A|-----5-----5-----2-----------------0--2-----------2--0-----------
E|--2-----2-----0-----3--2--0--2--3-----------------------3--2--0--



E|-------------------------
B|-------------------------
G|-------------------------
D|--4/6--9-----7--6--------
A|--5-7-----7--------9--7--
E|-------------------------



E|-----------------------------------
B|-----------------------------------
G|-----------------------------------
D|--9--9----------9--9---------------
A|--7--7--8--7--5/7--7-----7--10-----
E|--7--7--8--7--5-7--7--8---------7--
http://www.guitartabcreator.com
Guitar Tab Creator is intended to store guitar tab created through the tool. It currently does not support in-line text editing. Any text you place in here will be lost. If you need to comment on your tab, please use the "Tab Notes" section located below.