E minor Song -

(/) Slide Up  (\) Slide Down  (h) Hammer On  (p) Pull Off  (b) Bend (r) Release (v) Vibrato


E|-----------------------------------------
B|-----------------------------------------
G|-----------------------------------------
D|-----------------------------------------
A|--------15--------14---------------------
E|-0--0-0----0--0-0----0--0-0-15-0--0-0-14-



E|-------------------
B|-------------------
G|-------------------
D|-2--2-2-5-3-2-0-2--
A|-2--2-2---------2--
E|-0--0-0---------0--



E|----------------------------------------------
B|----------------------------------------------
G|----------------------------------------------
D|-2---2-2----2----2-2----2---2-2----2---2-2----
A|-2---2-2-5--2----2-2-3--2---2-2-2--2---2-2--7-
E|-0---0-0----0----0-0----0---0-0----0---0-0--5-



E|--------------------------
B|--------------------------
G|--------------------------
D|---5------------5---------
A|-7---5-3-0-7--7---5-3-0-2-
E|--------------------------



E|------------------------------------------------
B|------------------------------------------------
G|------------------------------------------------
D|--------2-5-4-2-----------------2-5-4-2---------
A|-2--2-3---------5-3-0-7--2--2-3---------5-3-0-2-
E|------------------------------------------------
http://www.guitartabcreator.com
Guitar Tab Creator is intended to store guitar tab created through the tool. It currently does not support in-line text editing. Any text you place in here will be lost. If you need to comment on your tab, please use the "Tab Notes" section located below.