Dan's Sabbathesque Song

(/) Slide Up  (\) Slide Down  (h) Hammer On  (p) Pull Off  (b) Bend (r) Release (v) Vibrato

E|-------------------
B|-------------------
G|-------------------
D|---2/4-------------
A|---------3---3-2---
E|-0-----0---0-----0-



E|-------
B|-------
G|---5-4-
D|-2-5-4-
A|-2-3-2-
E|-0-----



E|---------------------------------
B|---------------------------------
G|-------------5-5---4-4-4---------
D|-2-2-2-7-7-7-5-5-5-4-4-4---------
A|-2-2-2-7-7-7-3-3-3-2-2-2---3-2---
E|-0-0-0-5-5-5-------------------0-



E|------------------------------------
B|------------------------------------
G|------------------------------------
D|---7-10------9---------------10-9---
A|-9------7-10-----7-10------9------7-
E|---------------8------7-10----------



E|-----------------------------------------------------------------------
B|-----------------------------------------------------------------------
G|-----------------------------------------------------------------------
D|--2-----------------9--------------------7--------------------------2--
A|--2-----------------7--------------------5--------------------3--2--2--
E|--0--0--0--0--0--0-----0--0--0--0--0--0-----0--0--0--0--0--0--------0--



E|-------------------------------------------------
B|-------------------------------------------------
G|-------------------------------------------------
D|----------------------------------------------2--
A|--3--2--0--7--------3--2--0--5----------3--2--2--
E|----------------------------------------------0--
http://www.guitartabcreator.com
Guitar Tab Creator is intended to store guitar tab created through the tool. It currently does not support in-line text editing. Any text you place in here will be lost. If you need to comment on your tab, please use the "Tab Notes" section located below.