D and C

(/) Slide Up  (\) Slide Down  (h) Hammer On  (p) Pull Off  (b) Bend (r) Release (v) Vibrato

Stave 1:

E|---------------------------
B|---------------------------
G|---------------------------
D|----2h3--3--3--2--5--5--5--
A|----0-3--3--3--3--3--3--3--
E|---------------------------

Stave 2:

E|--------------------------------------
B|--------------------------------------
G|--5--4--2--2--2--2--5--4--2--4--4--4--
D|-----------2--2--2-----------2--2--2--
A|--------------------------------------
E|--------------------------------------

Stave 3:

E|-------------------------------------
B|-------------------------------------
G|-------------------------------------
D|--------------6h7--7--7--4--5--5--5--
A|--------------5----5--5--5--3--3--3--
E|-------------------------------------

Stave 4:

E|-------------------------------
B|-------------------------------
G|-------------------------------
D|--7--7--7--7--7--7--7h9--9--9--
A|--0--0--0--0--0--0--0----0--0--
E|-------------------------------

Stave 5:

E|----------------------------------------------------
B|----------------------------------------------------
G|----------------------------------------------------
D|--12--9---9--0--0--4--2--2--5-----4--7-----2--5--2--
A|--10--10--7--2--2--2--3--3--3--5--------3--------2--
E|-------------------------------------------------0--

http://www.guitartabcreator.com
Guitar Tab Creator is intended to store guitar tab created through the tool. It currently does not support in-line text editing. Any text you place in here will be lost. If you need to comment on your tab, please use the "Tab Notes" section located below.