Bass Song

(/) Slide Up  (\) Slide Down  (h) Hammer On  (p) Pull Off  (b) Bend (r) Release (v) Vibrato


E|------------------------------------------------------------
B|------------------------------------------------------------
G|------------------------------------------------------------
D|------------------------------------------------------------
A|----------3-2-0--------------3-2-0--------------------------
E|-0-1/2--2--------0--0h1/2--2--------0-0-0-0-0-0-0-0-0-0-1-2-



E|-------------------------------------------------------------
B|-------------------------------------------------------------
G|-------------------------------------------------------------
D|-------------------------------------------------------------
A|-0-0-0-0-0-0-0-0-0-0-3-3-3-3-3-3-3-3-3-3-0-0-0-0-0-0-0-0-0-3-
E|-------------------------------------------------------------



E|-----------------------------
B|-----------------------------
G|-----------------------------
D|-2--2-2--4--4-4--0--0-0----5-
A|-------------------------3---
E|-----------------------------



E|----------------------------------------------------------
B|----------------------------------------------------------
G|-------------------------------9-------11-------7-------9-
D|-9-9-9-12-11-9-7-7-7---7-9-7-9---9-7-9----9-7-9---9-7-9---
A|---------------------9------------------------------------
E|----------------------------------------------------------



E|-------------------------------------------------------
B|-------------------------------------------------------
G|-9-11--------------------------------------------------
D|------12-11---------12----9-9-12-12--------------------
A|------------12-9-12-----------------12-10--------10-10-
E|------------------------------------------10-8-8-------



E|-----------------------------------------
B|-----------------------------------------
G|-----------------------------------------
D|------------10----10----------------14---
A|---------12----12----12-10----10-12------
E|-8-10-12-------------------12------------



E|----------------------------------------------------
B|----------------------------------------------------
G|----------------------------------------------------
D|----14---------12---------10---------12----------12-
A|-12----12---12----12---12----12---10----10-10-12----
E|----------------------------------------------------



E|--------------------------------
B|--------------------------------
G|----9--------------9---9----9---
D|-12---10-9-7---0-7--------------
A|-------------7-------9---11---0-
E|--------------------------------
http://www.guitartabcreator.com
Guitar Tab Creator is intended to store guitar tab created through the tool. It currently does not support in-line text editing. Any text you place in here will be lost. If you need to comment on your tab, please use the "Tab Notes" section located below.