Allan Song #2

(/) Slide Up  (\) Slide Down  (h) Hammer On  (p) Pull Off  (b) Bend (r) Release (v) Vibrato

E|------------------------------------------------
B|------------------------------------------------
G|------------------------------------------------
D|------------------------------------------------
A|--4-----4-----4--5------4--------4--------4--5--
E|--2--0--2--0--2--3------2--0--0--2--0--0--2--3--



E|---------------------------------------------------------------------------------------------------
B|---------------------------------------------------------------------------------------------------
G|---------------------------------------------------------------------------------------------------
D|---------------------------------------------------------------------------------------------------
A|---------------------------------------------------------------------------------------------------
E|--3--3--3--3--3--3--3--6----3--3--3--3--3--3--3--5----3--3--3--3--3--3--3--6--3--5--3--5--6--5--3--



E|-------------------------------------
B|-------------------------------------
G|-------------------------------------
D|-------------------------------------
A|-----------8-----------6--------6\8--
E|--3--3--3--6--3--3--3--4--3--3--4-6--



E|--------------------------------------------------------------
B|--------------------------------------------------------------
G|--------------------------------------------------------------
D|--------7--------9--------10------------10--------9--------7--
A|--0--0--5--0--0--7--0--0--8-------0--0--8---0--0--7--0--0--5--
E|--------5--------7--------8-------------8---------7--------5--



E|--------------------------------
B|-----8--7--------7--------7-----
G|-----------7--5-----5--4-----4--
D|--7-----------------------------
A|--------------------------------
E|--------------------------------



E|--------------------------------------
B|---------10--12--10-------------------
G|--9--11--------------11--9------------
D|----------------------------10--9--7--
A|--------------------------------------
E|--------------------------------------



E|--------------------------
B|--10h8--------------------
G|--------10h9--------------
D|--------------10h9--7-----
A|--------------------------
E|--------------------------



E|--------------
B|--------------
G|--------------
D|--7--2--5--7--
A|--5--2--3--5--
E|--5--0--3--5--
http://www.guitartabcreator.com
Guitar Tab Creator is intended to store guitar tab created through the tool. It currently does not support in-line text editing. Any text you place in here will be lost. If you need to comment on your tab, please use the "Tab Notes" section located below.