Allan solo for Dan's song

(/) Slide Up  (\) Slide Down  (h) Hammer On  (p) Pull Off  (b) Bend (r) Release (v) Vibrato


E|--15p14p12p--15p14p12p----15p14p12p----17p16p14p--17p16p14p--17p16p14p--19p18p16p--
B|-----------------------------------------------------------------------------------
G|-----------------------------------------------------------------------------------
D|-----------------------------------------------------------------------------------
A|-----------------------------------------------------------------------------------
E|-----------------------------------------------------------------------------------



E|--19p18p16p--19p18p16p--15p14p12p-----------------------------------------------------
B|-----------------------------------14--13--11-----------------------------------------
G|-----------------------------------------------13--12--9--15h16p----------------------
D|------------------------------------------------------------------16--15--------------
A|--------------------------------------------------------------------------15--14--12--
E|--------------------------------------------------------------------------------------
http://www.guitartabcreator.com
Guitar Tab Creator is intended to store guitar tab created through the tool. It currently does not support in-line text editing. Any text you place in here will be lost. If you need to comment on your tab, please use the "Tab Notes" section located below.