Ghosts That We Knew by Mumford & Sons

(/) Slide Up  (\) Slide Down  (h) Hammer On  (p) Pull Off  (b) Bend (r) Release (v) Vibrato


E|--------------------------|--------------------------|-----3-----3-----3-----3--|-----3-----3-----2-----0--|--
B|-----0-----0-----0-----0--|-----0-----0-----0-----0--|--------------------------|--------------------------|--
G|--------------------------|--------------------------|--------------------------|--------------------------|--
D|--0-----0-----0-----0-----|--0-----0-----0-----0-----|--0-----0-----0-----0-----|--0-----0-----0-----0-----|--
A|--------------------------|--------------------------|--------------------------|--------------------------|--
E|--------------------------|--------------------------|--------------------------|--------------------------|--



E|--------------------------|--------------------------|--------------------------|--------------------------------
B|-----0-----0--------------|--------------------------|-----------------0-----0--|-----0-----0-----0--1--0--0--1--
G|-----------------0-----0--|--------------------------|-----0-----0--------------|--------------------------------
D|--------------------------|-----2-----2-----1-----1--|--0-----0-----0-----0-----|--0-----0-----0-----------------
A|--2-----2-----2-----2-----|--2-----2-----2-----2-----|--------------------------|--------------------------------
E|--------------------------|--------------------------|--------------------------|--------------------------------
http://www.guitartabcreator.com
Guitar Tab Creator is intended to store guitar tab created through the tool. It currently does not support in-line text editing. Any text you place in here will be lost. If you need to comment on your tab, please use the "Tab Notes" section located below.