Someday

(/) Slide Up  (\) Slide Down  (h) Hammer On  (p) Pull Off  (b) Bend (r) Release (v) Vibrato


E|----------------------------------
B|--10--12--10--12--14--12--12--10--
G|--9---9---11--11--11--11--9---9---
D|----------------------------------
A|----------------------------------
E|----------------------------------



E|--5--5--7--7--10--10--5--5--
B|--5--5--7--7--10--10--5--5--
G|--6--6--7--7--11--11--6--6--
D|--7--7--9--9--12--12--7--7--
A|--7--7--9--9--12--12--7--7--
E|--5--5--7--7--10--10--5--5--



E|------12----------10----------9-----------------
B|--14------14--12------12--10-----10------7--10--
G|-----------------------------------------7--9---
D|------------------------------------------------
A|------------------------------------------------
E|------------------------------------------------



E|--5--x--9---10--5--x--
B|--5--9--10--10--5--9--
G|--6--9--11--11--6--9--
D|--7--9--11--12--7--9--
A|--7--7--9---12--7--7--
E|--5---------10--5-----
http://www.guitartabcreator.com
Guitar Tab Creator is intended to store guitar tab created through the tool. It currently does not support in-line text editing. Any text you place in here will be lost. If you need to comment on your tab, please use the "Tab Notes" section located below.