Is This It

(/) Slide Up  (\) Slide Down  (h) Hammer On  (p) Pull Off  (b) Bend (r) Release (v) Vibrato


E|--------------------------------------------------------------
B|------10------10-----10-----10------10------10-----10-----10--
G|--10------10------9------7------10------10------9------7------
D|--------------------------------------------------------------
A|--------------------------------------------------------------
E|--------------------------------------------------------------



E|--------------------------------------------------------------
B|------11------11-----11-----11------11------11-----11-----11--
G|--10------10------9------7------10------10------9------7------
D|--------------------------------------------------------------
A|--------------------------------------------------------------
E|--------------------------------------------------------------



E|-------------------------------------------------------------------------
B|-------------------------------------------------------------------------
G|-10-7-10-7-10-7-10-7-10-7-10-7-10-7-10-7-9-7-9-7-9-7-9-7-9-7-9-7-9-7-9-7-
D|-------------------------------------------------------------------------
A|-------------------------------------------------------------------------
E|-------------------------------------------------------------------------



E|-x--8--x--8--
B|-10-8--10-8--
G|-10-9--10-9--
D|-10-10-10-10-
A|-8--10-8--10-
E|----8-----8--



E|-8--x--8--x--8---------------
B|-8--10-8--10-8------------13-
G|-9--10-9--10-9------------12-
D|-10-10-10-10-10-----------10-
A|-10-8--10-8--10--------------
E|-8-----8-----8---------------
http://www.guitartabcreator.com
Guitar Tab Creator is intended to store guitar tab created through the tool. It currently does not support in-line text editing. Any text you place in here will be lost. If you need to comment on your tab, please use the "Tab Notes" section located below.