Hard To Explain

(/) Slide Up  (\) Slide Down  (h) Hammer On  (p) Pull Off  (b) Bend (r) Release (v) Vibrato


E|--3--7--x--x--x--x--x--x---
B|--3--8--5--5--7--5--5--12--
G|--4--9--5--5--7--5--5--12--
D|--5--9--5--5--7--5--5--12--
A|--5--7--0--3--5--3--0--10--
E|--3------------------------



E|-------------------------------------------------------------------------------------------
B|--8--7--8--------5--------------5-----7-----5-----------5-----7----5-----------------------
G|--7--9--9--5--7-----------7--5-----5-----5-----5--7--5-----5----------------------4--------
D|--------------------7--5----------------------------------------------5--5--7--7-----7-----
A|-------------------------------------------------------------------------------------------
E|-------------------------------------------------------------------------------------------



E|--------------------------------------------------------------
B|--------------------------------------------------------------
G|--4--7--4--5--4--4--7--4--5--4-----4--------------4-----------
D|--------------------------------5-----5--7--5--5-----5--7--5--
A|--------------------------------------------------------------
E|--------------------------------------------------------------
http://www.guitartabcreator.com
Guitar Tab Creator is intended to store guitar tab created through the tool. It currently does not support in-line text editing. Any text you place in here will be lost. If you need to comment on your tab, please use the "Tab Notes" section located below.