song

(/) Slide Up  (\) Slide Down  (h) Hammer On  (p) Pull Off  (b) Bend (r) Release (v) Vibrato

E|-----------3--3--3--3/5-----------2--2--2--2/3-----------3--3--3--3/5-----------2--2--2--2/3--
B|--------3----------------------0----------------------3----------------------0----------------
G|-----0----------------------0----------------------0----------------------0-------------------
D|----------------------------------------------------------------------------------------------
A|--3----------------------2----------------------3----------------------2----------------------
E|----------------------------------------------------------------------------------------------



E|-----------7--7--7--5-----------5---------------3----------------3--------------------------
B|--------8--------------------6---------------------3r1--------------3r1-----------3---------
G|-----9--------------------7------------------0----------------0----------------------3r2r0--
D|------------------------------------------2----------------2-------------------0------------
A|---------------------------------------3----------------0-------------------2---------------
E|--7--------------------5-------------------------------------------------3------------------
http://www.guitartabcreator.com
Guitar Tab Creator is intended to store guitar tab created through the tool. It currently does not support in-line text editing. Any text you place in here will be lost. If you need to comment on your tab, please use the "Tab Notes" section located below.