New Song

(/) Slide Up  (\) Slide Down  (h) Hammer On  (p) Pull Off  (b) Bend (r) Release (v) Vibrato

Stave 1:

E|----------------------------------------------------------------------------------
B|----------------------------------------------------------------------------------
G|---------5---7\9-7-5---------3-----5---10-10-10-10-10-10-10-7-7-7-10-10-10-10-----
D|-0-0-5-7---7---------3-3-3-5---5-5---5-10-10-10-10-10-10-10-7-7-7-10-10-10-10-----
A|-0-0-----------------3-3---------------8--8--8--8--8--8--8--5-5-5-8--8--8--8------
E|-0-0-----------------3-3---------------8--8--8--8--8--8--8--5-5-5-8--8--8--8------

Stave 2:

E|-------------------------------------------------------------------------------------------
B|-------------------------------------------------------------------------------------------
G|---10---10-10-10---10-10---10---10-10-10---10-10---5---5-5-5---5-5---10---10-10-10---10-10-
D|---10---10-10-10---10-10---10---10-10-10---10-10---5---5-5-5---5-5---10---10-10-10---10-10-
A|---8----8--8--8----8--8----8----8--8--8----8--8----3---3-3-3---3-3---8----8--8--8----8--8--
E|-0----0----------0-------8----8----------8-------3---3-------3-----8----8----------8-------

http://www.guitartabcreator.com
Guitar Tab Creator is intended to store guitar tab created through the tool. It currently does not support in-line text editing. Any text you place in here will be lost. If you need to comment on your tab, please use the "Tab Notes" section located below.