Somthing in E (break)

(/) Slide Up  (\) Slide Down  (h) Hammer On  (p) Pull Off  (b) Bend (r) Release (v) Vibrato
E|--------------3--0------------------
B|--------------------3--0------------
G|--1--1--1--1--------------2--0--2b2b
D|--2--2--2--2------------------------
A|--2--2--2--2------------------------
E|------------------------------------



E|-----------------------------------------
B|-----------------------------------------
G|--1--1--1--1-----------------------------
D|--2--2--2--2--2--1--0--------------------
A|--2--2--2--2-----------2--1--0-----------
E|--------------------------------3--2--0--



E|-----------------------------------------------
B|-----------------------------------------------
G|--1--1--1--1-----------------------------------
D|--2--2--2--2-------0----------0----------0-----
A|--2--2--2--2--0h2--------0h2--------0h2--------
E|----------------------3----------3----------3--



E|-------------------0-------0-------0-------0--3--0-------0--
B|--------------0h3-----0h3-----0h3-----0h3-----------3b3--0--
G|--1--1--1--1------------------------------------------------
D|--2--2--2--2------------------------------------------------
A|--2--2--2--2------------------------------------------------
E|------------------------------------------------------------
http://www.guitartabcreator.com
Guitar Tab Creator is intended to store guitar tab created through the tool. It currently does not support in-line text editing. Any text you place in here will be lost. If you need to comment on your tab, please use the "Tab Notes" section located below.