Don't Think Twice, It's Alright (ver Josh Turner)

(/) Slide Up  (\) Slide Down  (h) Hammer On  (p) Pull Off  (b) Bend (r) Release (v) Vibrato
E|-------------------------------------------0h1------------------------------------------------------
B|-------------------1-----------1----------------------1-----------1-----1--------1-----0h1----------
G|----------------0--------0-----------0----------0--------------2--------------2----------------0h2--
D|-------------2--------------------------0----------0--------2--------2-----2--------2-------3-------
A|-----0h2--3-----------2-----0----------------------------0------------------------------------------
E|--3-------------------------------3----------3--------------------------3----------------1----------



E|--------------------0h1-----------------------------0--------------------0--------------------
B|--1----------------------------1-----------------------------------1-----------------------1--
G|--------0-----0----------0--------------0-----0--------------0-----------------------0--------
D|-----3-----------0----------0--------2-----------2--------2-----------2--------2--------2-----
A|----------------------------------3--------------------3--------------------3-----------------
E|-----------3----------3--------------------3--------------------3-----------------3-----------



E|-----------0h1------------------------------------------------------------------------------
B|----------------------1-----------1--------1--------1----------------1----------------1-----
G|-----0----------0--------------2--------2--------2-----0--------0h2--------------0h2--------
D|--------0----------0--------2--------2--------2--------------3----------3-----3----------2--
A|-------------------------0------------------------------------------------------------------
E|--3----------3-----------------------------3--------------1----------------1----------------



E|--
B|--
G|--
D|--
A|--
E|--
http://www.guitartabcreator.com
Guitar Tab Creator is intended to store guitar tab created through the tool. It currently does not support in-line text editing. Any text you place in here will be lost. If you need to comment on your tab, please use the "Tab Notes" section located below.