Rock Song 1

(/) Slide Up  (\) Slide Down  (h) Hammer On  (p) Pull Off  (b) Bend (r) Release (v) Vibrato

E|-------------------------------------------------------------3--
B|--------------------------------------------------------x-------
G|--------------------------------------------------------x-------
D|-----------------------------5----------------------------------
A|--5/7-----7\5-----5/7--7--------7--5/7-----7\5-----5------------
E|-------0-------0----------0-------------0-------0--0------------



E|----------------------------------------------------------
B|----------------------------------------------------------
G|----------------------------------------------------------
D|-----------------------------5h7p5------------------------
A|--5/7-----7\5-----5/7--7------------7--5h7-----7p5-----5--
E|-------0-------0----------0-----------------0-------0--0--



E|------------------------------------------------------------
B|------------------------------------------------------------
G|-----------------------------5------------------------------
D|--5h7-----7p5-----5/7--7--------7--5h7--------7p5-----5-----
A|--0----0-------0----------0-------------0--0-------0--0-----
E|------------------------------------------------------------



E|--------------------------------------------------------------------
B|--------------------------------------------------------------------
G|--------------------------5h7p5-------------------------------------
D|--5h7-----7p5-----5h7--7---------7--5h7--------7p5-----5----b12-----
A|--0----0-------0--------------------0----0--0-------0--0------------
E|--------------------------------------------------------------------



E|------------------------------------------------------------------------
B|------------------------------------------------------------------------
G|--9------9--7------7--5------5----4--9------9--7------7--5------12--11--
D|--9------9--7------7--5------5----4--9------9--7------7--5------12--11--
A|--7------7--5------5--3------2----2--7------7--5------5--3------10--9---
E|------------------------------------------------------------------------



E|-----------------------------------------------------------------------------------------------------------
B|-----------------------------------------------------------------------------------------------------------
G|-----------------------------------------------------------------------7--x--7--x--7----7-9--9--x--9--x--9-
D|--2------------4--5--x--x--5--x--5--5--x--5----------7--7--x--x--x--x--7--x--7--x--7----7-9--9--x--9--x--9-
A|--2------------4--5--x--x--5--x--5--5--x--5----------7--7--x--x--x--x--5--x--5--x--5----5/7--7--x--7--x--7\
E|--0------------2--3--x--x--3--x--3--3--x--3----------5--5--x--x--x--x--------------------------------------
http://www.guitartabcreator.com
Guitar Tab Creator is intended to store guitar tab created through the tool. It currently does not support in-line text editing. Any text you place in here will be lost. If you need to comment on your tab, please use the "Tab Notes" section located below.