Your Great Name - Natalie Grant

(/) Slide Up  (\) Slide Down  (h) Hammer On  (p) Pull Off  (b) Bend (r) Release (v) Vibrato


E|------------10--8--10--|--|------------8------8--
B|--8------8-------------|--|--8------8-----11-----
G|-----10----------------|--|-----10---------------
D|-----------------------|--|----------------------
A|-----------------------|--|----------------------
E|-----------------------|--|----------------------


Eb Bb F Gm Eb Bb Gm F
E|--11--10--8---10-| 3X ---11--10--10--8---
B|--11--11--10--11-| ---11--11--11--10--
G|-----------------| -------------------
D|-----------------| -------------------
A|-----------------| -------------------
E|-----------------| -------------------


http://www.guitartabcreator.com
Guitar Tab Creator is intended to store guitar tab created through the tool. It currently does not support in-line text editing. Any text you place in here will be lost. If you need to comment on your tab, please use the "Tab Notes" section located below.