The Same Love

(/) Slide Up  (\) Slide Down  (h) Hammer On  (p) Pull Off  (b) Bend (r) Release (v) Vibrato

E|-----7-----7-----6-----6-----7-----7-----7-----7--
B|--7-----7-----7-----7-----4-----4-----5-----5-----
G|--------------------------------------------------
D|--------------------------------------------------
A|--------------------------------------------------
E|--------------------------------------------------



E|------------------------------------------------------------
B|--12--11--4--7--12--11--4--7--13--13--11--11--9--9--12--12--
G|------------------------------------------------------------
D|------------------------------------------------------------
A|------------------------------------------------------------
E|------------------------------------------------------------



E|----------------------------------------9------11----------9--------11------
B|--11--------12--7----11--------12--7---------------12-------------------12--
G|----------------------------------------------------------------------------
D|----------------------------------------------------------------------------
A|----------------------------------------------------------------------------
E|----------------------------------------------------------------------------



E|--------6--7--9--11--7-----------------------------------------------------------
B|--------7--7--7------7--7--4--5------12--11--4--7----12--11--4--9----14--16--17--
G|---------------------------------------------------------------------------------
D|---------------------------------------------------------------------------------
A|---------------------------------------------------------------------------------
E|---------------------------------------------------------------------------------



E|-----7-----6-----7-----7-------------------------------------------------------
B|--7-----7-----4-----5---------12--11--4--7----12--11--4--9--14--16--17--19-----
G|-------------------------------------------------------------------------------
D|-------------------------------------------------------------------------------
A|-------------------------------------------------------------------------------
E|-------------------------------------------------------------------------------
http://www.guitartabcreator.com
Guitar Tab Creator is intended to store guitar tab created through the tool. It currently does not support in-line text editing. Any text you place in here will be lost. If you need to comment on your tab, please use the "Tab Notes" section located below.